  0
SECTION
  2
HEADER
  9
$ACADVER
  1
AC1015
  9
$ACADMAINTVER
 70
     6
  9
$DWGCODEPAGE
  3
ANSI_1254
  9
$INSBASE
 10
0.0
 20
0.0
 30
0.0
  9
$EXTMIN
 10
0.0
 20
0.0
 30
0.0
  9
$EXTMAX
 10
279.4
 20
215.9
 30
0.0
  9
$LIMMIN
 10
0.0
 20
0.0
  9
$LIMMAX
 10
279.4
 20
215.9
  9
$ORTHOMODE
 70
     0
  9
$REGENMODE
 70
     1
  9
$FILLMODE
 70
     1
  9
$QTEXTMODE
 70
     0
  9
$MIRRTEXT
 70
     1
  9
$LTSCALE
 40
1.0
  9
$ATTMODE
 70
     1
  9
$TEXTSIZE
 40
3.5
  9
$TRACEWID
 40
1.0
  9
$TEXTSTYLE
  7
Standard
  9
$CLAYER
  8
0
  9
$CELTYPE
  6
ByLayer
  9
$CECOLOR
 62
   256
  9
$CELTSCALE
 40
1.0
  9
$DISPSILH
 70
     0
  9
$DIMSCALE
 40
1.0
  9
$DIMASZ
 40
3.5
  9
$DIMEXO
 40
1.0
  9
$DIMDLI
 40
3.75
  9
$DIMRND
 40
0.0
  9
$DIMDLE
 40
0.0
  9
$DIMEXE
 40
1.0
  9
$DIMTP
 40
0.0
  9
$DIMTM
 40
0.0
  9
$DIMTXT
 40
3.5
  9
$DIMCEN
 40
2.5
  9
$DIMTSZ
 40
0.0
  9
$DIMTOL
 70
     0
  9
$DIMLIM
 70
     0
  9
$DIMTIH
 70
     1
  9
$DIMTOH
 70
     1
  9
$DIMSE1
 70
     0
  9
$DIMSE2
 70
     0
  9
$DIMTAD
 70
     1
  9
$DIMZIN
 70
     0
  9
$DIMBLK
  1

  9
$DIMASO
 70
     1
  9
$DIMSHO
 70
     1
  9
$DIMPOST
  1

  9
$DIMAPOST
  1

  9
$DIMALT
 70
     0
  9
$DIMALTD
 70
     3
  9
$DIMALTF
 40
0.0393700787
  9
$DIMLFAC
 40
1.0
  9
$DIMTOFL
 70
     1
  9
$DIMTVP
 40
0.0
  9
$DIMTIX
 70
     0
  9
$DIMSOXD
 70
     0
  9
$DIMSAH
 70
     0
  9
$DIMBLK1
  1

  9
$DIMBLK2
  1

  9
$DIMSTYLE
  2
ISO-25
  9
$DIMCLRD
 70
     0
  9
$DIMCLRE
 70
     0
  9
$DIMCLRT
 70
     0
  9
$DIMTFAC
 40
1.0
  9
$DIMGAP
 40
1.524
  9
$DIMJUST
 70
     0
  9
$DIMSD1
 70
     0
  9
$DIMSD2
 70
     0
  9
$DIMTOLJ
 70
     0
  9
$DIMTZIN
 70
     0
  9
$DIMALTZ
 70
     0
  9
$DIMALTTZ
 70
     0
  9
$DIMUPT
 70
     0
  9
$DIMDEC
 70
     2
  9
$DIMTDEC
 70
     2
  9
$DIMALTU
 70
     2
  9
$DIMALTTD
 70
     3
  9
$DIMTXSTY
  7
Standard
  9
$DIMAUNIT
 70
     0
  9
$DIMADEC
 70
     2
  9
$DIMALTRND
 40
0.0
  9
$DIMAZIN
 70
     0
  9
$DIMDSEP
 70
    44
  9
$DIMATFIT
 70
     3
  9
$DIMFRAC
 70
     0
  9
$DIMLDRBLK
  1

  9
$DIMLUNIT
 70
     2
  9
$DIMLWD
 70
    -2
  9
$DIMLWE
 70
    -2
  9
$DIMTMOVE
 70
     0
  9
$LUNITS
 70
     2
  9
$LUPREC
 70
     2
  9
$SKETCHINC
 40
1.0
  9
$FILLETRAD
 40
10.0
  9
$AUNITS
 70
     0
  9
$AUPREC
 70
     2
  9
$MENU
  1
.
  9
$ELEVATION
 40
0.0
  9
$PELEVATION
 40
0.0
  9
$THICKNESS
 40
0.0
  9
$LIMCHECK
 70
     0
  9
$CHAMFERA
 40
0.0
  9
$CHAMFERB
 40
0.0
  9
$CHAMFERC
 40
0.0
  9
$CHAMFERD
 40
0.0
  9
$SKPOLY
 70
     0
  9
$TDCREATE
 40
2458985.706275289
  9
$TDUCREATE
 40
2458985.581275289
  9
$TDUPDATE
 40
2458985.706275625
  9
$TDUUPDATE
 40
2458985.581275625
  9
$TDINDWG
 40
0.0000000116
  9
$TDUSRTIMER
 40
0.0000000116
  9
$USRTIMER
 70
     1
  9
$ANGBASE
 50
0.0
  9
$ANGDIR
 70
     0
  9
$PDMODE
 70
     0
  9
$PDSIZE
 40
-1.0
  9
$PLINEWID
 40
0.0
  9
$SPLFRAME
 70
     0
  9
$SPLINETYPE
 70
     6
  9
$SPLINESEGS
 70
     8
  9
$HANDSEED
  5
F1
  9
$SURFTAB1
 70
     6
  9
$SURFTAB2
 70
     6
  9
$SURFTYPE
 70
     6
  9
$SURFU
 70
     6
  9
$SURFV
 70
     6
  9
$UCSBASE
  2

  9
$UCSNAME
  2

  9
$UCSORG
 10
0.0
 20
0.0
 30
0.0
  9
$UCSXDIR
 10
1.0
 20
0.0
 30
0.0
  9
$UCSYDIR
 10
0.0
 20
1.0
 30
0.0
  9
$UCSORTHOREF
  2

  9
$UCSORTHOVIEW
 70
     0
  9
$UCSORGTOP
 10
0.0
 20
0.0
 30
0.0
  9
$UCSORGBOTTOM
 10
0.0
 20
0.0
 30
0.0
  9
$UCSORGLEFT
 10
0.0
 20
0.0
 30
0.0
  9
$UCSORGRIGHT
 10
0.0
 20
0.0
 30
0.0
  9
$UCSORGFRONT
 10
0.0
 20
0.0
 30
0.0
  9
$UCSORGBACK
 10
0.0
 20
0.0
 30
0.0
  9
$PUCSBASE
  2

  9
$PUCSNAME
  2

  9
$PUCSORG
 10
0.0
 20
0.0
 30
0.0
  9
$PUCSXDIR
 10
1.0
 20
0.0
 30
0.0
  9
$PUCSYDIR
 10
0.0
 20
1.0
 30
0.0
  9
$PUCSORTHOREF
  2

  9
$PUCSORTHOVIEW
 70
     0
  9
$PUCSORGTOP
 10
0.0
 20
0.0
 30
0.0
  9
$PUCSORGBOTTOM
 10
0.0
 20
0.0
 30
0.0
  9
$PUCSORGLEFT
 10
0.0
 20
0.0
 30
0.0
  9
$PUCSORGRIGHT
 10
0.0
 20
0.0
 30
0.0
  9
$PUCSORGFRONT
 10
0.0
 20
0.0
 30
0.0
  9
$PUCSORGBACK
 10
0.0
 20
0.0
 30
0.0
  9
$USERI1
 70
     0
  9
$USERI2
 70
     0
  9
$USERI3
 70
     0
  9
$USERI4
 70
     0
  9
$USERI5
 70
     0
  9
$USERR1
 40
0.0
  9
$USERR2
 40
0.0
  9
$USERR3
 40
0.0
  9
$USERR4
 40
0.0
  9
$USERR5
 40
0.0
  9
$WORLDVIEW
 70
     1
  9
$SHADEDGE
 70
     3
  9
$SHADEDIF
 70
    70
  9
$TILEMODE
 70
     1
  9
$MAXACTVP
 70
    64
  9
$PINSBASE
 10
0.0
 20
0.0
 30
0.0
  9
$PLIMCHECK
 70
     0
  9
$PEXTMIN
 10
1.0000000000E+20
 20
1.0000000000E+20
 30
1.0000000000E+20
  9
$PEXTMAX
 10
-1.0000000000E+20
 20
-1.0000000000E+20
 30
-1.0000000000E+20
  9
$PLIMMIN
 10
0.0
 20
0.0
  9
$PLIMMAX
 10
420.0
 20
297.0
  9
$UNITMODE
 70
     0
  9
$VISRETAIN
 70
     1
  9
$PLINEGEN
 70
     0
  9
$PSLTSCALE
 70
     1
  9
$TREEDEPTH
 70
  3020
  9
$CMLSTYLE
  2
Standard
  9
$CMLJUST
 70
     0
  9
$CMLSCALE
 40
20.0
  9
$PROXYGRAPHICS
 70
     1
  9
$MEASUREMENT
 70
     1
  9
$CELWEIGHT
370
    -1
  9
$ENDCAPS
280
     0
  9
$JOINSTYLE
280
     0
  9
$LWDISPLAY
290
     1
  9
$INSUNITS
 70
     4
  9
$HYPERLINKBASE
  1

  9
$STYLESHEET
  1

  9
$XEDIT
290
     1
  9
$CEPSNTYPE
380
     0
  9
$PSTYLEMODE
290
     1
  9
$FINGERPRINTGUID
  2
{740edac4-14c4-4e91-a949-1219ce6dd1b3}
  9
$VERSIONGUID
  2
{FAEB1C32-E019-11D5-929B-00C0DF256EC4}
  9
$EXTNAMES
290
     1
  9
$PSVPSCALE
 40
0.0
  9
$OLESTARTUP
290
     0
  0
ENDSEC
  0
SECTION
  2
CLASSES
  0
CLASS
  1
ACDBDICTIONARYWDFLT
  2
AcDbDictionaryWithDefault
  3
ObjectDBX Classes
 90
        0
280
     0
281
     0
  0
CLASS
  1
VISUALSTYLE
  2
AcDbVisualStyle
  3
ObjectDBX Classes
 90
     4095
280
     0
281
     0
  0
CLASS
  1
MATERIAL
  2
AcDbMaterial
  3
ObjectDBX Classes
 90
     1153
280
     0
281
     0
  0
CLASS
  1
SCALE
  2
AcDbScale
  3
ObjectDBX Classes
 90
     1153
280
     0
281
     0
  0
CLASS
  1
TABLESTYLE
  2
AcDbTableStyle
  3
ObjectDBX Classes
 90
     4095
280
     0
281
     0
  0
CLASS
  1
MLEADERSTYLE
  2
AcDbMLeaderStyle
  3
ACDB_MLEADERSTYLE_CLASS
 90
     4095
280
     0
281
     0
  0
CLASS
  1
SUN
  2
AcDbSun
  3
SCENEOE
 90
     1153
280
     0
281
     0
  0
CLASS
  1
ACDBPLACEHOLDER
  2
AcDbPlaceHolder
  3
ObjectDBX Classes
 90
        0
280
     0
281
     0
  0
CLASS
  1
LAYOUT
  2
AcDbLayout
  3
ObjectDBX Classes
 90
        0
280
     0
281
     0
  0
ENDSEC
  0
SECTION
  2
TABLES
  0
TABLE
  2
VPORT
  5
8
330
0
100
AcDbSymbolTable
 70
     1
  0
VPORT
  5
29
330
8
100
AcDbSymbolTableRecord
100
AcDbViewportTableRecord
  2
*Active
 70
     0
 10
0.0
 20
0.0
 11
1.0
 21
1.0
 12
139.7
 22
107.95
 13
0.0
 23
0.0
 14
10.0
 24
10.0
 15
10.0
 25
10.0
 16
0.0
 26
0.0
 36
1.0
 17
0.0
 27
0.0
 37
0.0
 40
215.9
 41
1.2941176471
 42
50.0
 43
0.0
 44
0.0
 50
0.0
 51
0.0
 71
     0
 72
  2000
 73
     1
 74
     3
 75
     0
 76
     0
 77
     0
 78
     0
281
     0
 65
     1
110
0.0
120
0.0
130
0.0
111
1.0
121
0.0
131
0.0
112
0.0
122
1.0
132
0.0
 79
     0
146
0.0
  0
ENDTAB
  0
TABLE
  2
LTYPE
  5
5
330
0
100
AcDbSymbolTable
 70
     6
  0
LTYPE
  5
14
330
5
100
AcDbSymbolTableRecord
100
AcDbLinetypeTableRecord
  2
ByBlock
 70
     0
  3

 72
    65
 73
     0
 40
0.0
  0
LTYPE
  5
15
330
5
100
AcDbSymbolTableRecord
100
AcDbLinetypeTableRecord
  2
ByLayer
 70
     0
  3

 72
    65
 73
     0
 40
0.0
  0
LTYPE
  5
16
330
5
100
AcDbSymbolTableRecord
100
AcDbLinetypeTableRecord
  2
Continuous
 70
     0
  3
Solid line
 72
    65
 73
     0
 40
0.0
  0
LTYPE
  5
6E
330
5
100
AcDbSymbolTableRecord
100
AcDbLinetypeTableRecord
  2
HIDDEN
 70
     0
  3
Hidden __ __ __ __ __ __ __ __ __ __ __ __ __ __
 72
    65
 73
     2
 40
1.905
 49
1.27
 74
     0
 49
-0.635
 74
     0
  0
LTYPE
  5
6F
330
5
100
AcDbSymbolTableRecord
100
AcDbLinetypeTableRecord
  2
PHANTOM
 70
     0
  3
Phantom ______  __  __  ______  __  __  ______
 72
    65
 73
     6
 40
12.7
 49
6.35
 74
     0
 49
-1.27
 74
     0
 49
1.27
 74
     0
 49
-1.27
 74
     0
 49
1.27
 74
     0
 49
-1.27
 74
     0
  0
LTYPE
  5
70
330
5
100
AcDbSymbolTableRecord
100
AcDbLinetypeTableRecord
  2
CENTER
 70
     0
  3
Center ____ _ ____ _ ____ _ ____ _ ____ _ ____
 72
    65
 73
     4
 40
10.16
 49
6.35
 74
     0
 49
-1.27
 74
     0
 49
1.27
 74
     0
 49
-1.27
 74
     0
  0
LTYPE
  5
71
330
5
100
AcDbSymbolTableRecord
100
AcDbLinetypeTableRecord
  2
CENTERX2
 70
     0
  3
Center (2x) ________  __  ________  __  _____
 72
    65
 73
     4
 40
20.32
 49
12.7
 74
     0
 49
-2.54
 74
     0
 49
2.54
 74
     0
 49
-2.54
 74
     0
  0
LTYPE
  5
72
330
5
100
AcDbSymbolTableRecord
100
AcDbLinetypeTableRecord
  2
DOT2
 70
     0
  3
Dot (.5x) ........................................
 72
    65
 73
     2
 40
0.635
 49
0.0
 74
     0
 49
-0.635
 74
     0
  0
ENDTAB
  0
TABLE
  2
LAYER
  5
2
330
0
100
AcDbSymbolTable
 70
    17
  0
LAYER
  5
10
330
2
100
AcDbSymbolTableRecord
100
AcDbLayerTableRecord
  2
0
 70
     0
 62
     7
  6
Continuous
370
    -3
390
F
  0
LAYER
  5
73
330
2
100
AcDbSymbolTableRecord
100
AcDbLayerTableRecord
  2
FORMAT
 70
     0
 62
     7
  6
Continuous
370
    -3
390
F
  0
LAYER
  5
74
330
2
100
AcDbSymbolTableRecord
100
AcDbLayerTableRecord
  2
YARDIMCI_GEOMETRI
 70
     0
 62
    -6
  6
Continuous
290
     0
370
    -3
390
F
  0
LAYER
  5
75
330
2
100
AcDbSymbolTableRecord
100
AcDbLayerTableRecord
  2
SAYFA_CERCEVESI
 70
     0
 62
     7
  6
Continuous
370
    25
390
F
  0
LAYER
  5
76
330
2
100
AcDbSymbolTableRecord
100
AcDbLayerTableRecord
  2
ANTET
 70
     0
 62
     7
  6
Continuous
370
    -3
390
F
  0
LAYER
  5
77
330
2
100
AcDbSymbolTableRecord
100
AcDbLayerTableRecord
  2
OLCU
 70
     0
 62
   150
  6
Continuous
370
    -3
390
F
  0
LAYER
  5
78
330
2
100
AcDbSymbolTableRecord
100
AcDbLayerTableRecord
  2
METIN
 70
     0
 62
    96
  6
Continuous
370
    -3
390
F
  0
LAYER
  5
79
330
2
100
AcDbSymbolTableRecord
100
AcDbLayerTableRecord
  2
BALON
 70
     0
 62
     5
  6
Continuous
370
    -3
390
F
  0
LAYER
  5
7A
330
2
100
AcDbSymbolTableRecord
100
AcDbLayerTableRecord
  2
VURGU
 70
     0
 62
     7
  6
Continuous
370
    -3
390
F
  0
LAYER
  5
7B
330
2
100
AcDbSymbolTableRecord
100
AcDbLayerTableRecord
  2
SILIK
 70
     0
 62
     7
  6
Continuous
370
    -3
390
F
  0
LAYER
  5
7C
330
2
100
AcDbSymbolTableRecord
100
AcDbLayerTableRecord
  2
MODEL
 70
     0
 62
     7
  6
Continuous
370
    -3
390
F
  0
LAYER
  5
7D
330
2
100
AcDbSymbolTableRecord
100
AcDbLayerTableRecord
  2
DETAYLANDıRMA
 70
     0
 62
   190
  6
Continuous
370
    -3
390
F
  0
LAYER
  5
7E
330
2
100
AcDbSymbolTableRecord
100
AcDbLayerTableRecord
  2
TOLERANS
 70
     0
 62
   230
  6
Continuous
370
    -3
390
F
  0
LAYER
  5
7F
330
2
100
AcDbSymbolTableRecord
100
AcDbLayerTableRecord
  2
MERKEZ_CIZGILERI
 70
     0
 62
    30
  6
Continuous
370
    -3
390
F
  0
LAYER
  5
80
330
2
100
AcDbSymbolTableRecord
100
AcDbLayerTableRecord
  2
KESIT-DETAY_CIZGILERI
 70
     0
 62
     7
  6
Continuous
370
    -3
390
F
  0
LAYER
  5
81
330
2
100
AcDbSymbolTableRecord
100
AcDbLayerTableRecord
  2
\U+041E\U+0421\U+0415\U+0412\U+042B\U+0415
 70
     0
 62
     7
  6
Continuous
370
    -3
390
F
  0
LAYER
  5
82
330
2
100
AcDbSymbolTableRecord
100
AcDbLayerTableRecord
  2
\U+0412\U+041E\U+0414\U+042F\U+041D\U+042B\U+0415_\U+0417\U+041D\U+0410\U+041A\U+0418
 70
     0
 62
    11
  6
Continuous
370
    -3
390
F
  0
ENDTAB
  0
TABLE
  2
STYLE
  5
3
330
0
100
AcDbSymbolTable
 70
     1
  0
STYLE
  5
11
330
3
100
AcDbSymbolTableRecord
100
AcDbTextStyleTableRecord
  2
Standard
 70
     0
 40
0.0
 41
1.0
 50
0.0
 71
     0
 42
3.5
  3
txt
  4

  0
ENDTAB
  0
TABLE
  2
VIEW
  5
6
330
0
100
AcDbSymbolTable
 70
     0
  0
ENDTAB
  0
TABLE
  2
UCS
  5
7
330
0
100
AcDbSymbolTable
 70
     0
  0
ENDTAB
  0
TABLE
  2
APPID
  5
9
330
0
100
AcDbSymbolTable
 70
     1
  0
APPID
  5
12
330
9
100
AcDbSymbolTableRecord
100
AcDbRegAppTableRecord
  2
ACAD
 70
     0
  0
ENDTAB
  0
TABLE
  2
DIMSTYLE
  5
A
330
0
100
AcDbSymbolTable
 70
     1
100
AcDbDimStyleTable
  0
DIMSTYLE
105
27
330
A
100
AcDbSymbolTableRecord
100
AcDbDimStyleTableRecord
  2
ISO-25
 70
     0
 41
2.5
 42
0.625
 43
3.75
 44
1.25
 73
     0
 74
     0
 77
     1
 78
     8
140
2.5
141
2.5
143
0.0393700787
147
0.625
171
     3
172
     1
178
     0
271
     2
272
     2
274
     3
278
    44
283
     0
284
     8
340
11
  0
ENDTAB
  0
TABLE
  2
BLOCK_RECORD
  5
1
330
0
100
AcDbSymbolTable
 70
     2
  0
BLOCK_RECORD
  5
1F
330
1
100
AcDbSymbolTableRecord
100
AcDbBlockTableRecord
  2
*Model_Space
340
22
  0
BLOCK_RECORD
  5
1B
330
1
100
AcDbSymbolTableRecord
100
AcDbBlockTableRecord
  2
*Paper_Space
340
1E
  0
BLOCK_RECORD
  5
23
330
1
100
AcDbSymbolTableRecord
100
AcDbBlockTableRecord
  2
*Paper_Space0
340
26
  0
BLOCK_RECORD
  5
88
330
1
100
AcDbSymbolTableRecord
100
AcDbBlockTableRecord
  2
SW_CENTERMARKSYMBOL_0
340
0
102
{BLKREFS
331
93
102
}
  0
ENDTAB
  0
ENDSEC
  0
SECTION
  2
BLOCKS
  0
BLOCK
  5
20
330
1F
100
AcDbEntity
  8
0
100
AcDbBlockBegin
  2
*Model_Space
 70
     0
 10
0.0
 20
0.0
 30
0.0
  3
*Model_Space
  1

  0
ENDBLK
  5
21
330
1F
100
AcDbEntity
  8
0
100
AcDbBlockEnd
  0
BLOCK
  5
1C
330
1B
100
AcDbEntity
 67
     1
  8
0
100
AcDbBlockBegin
  2
*Paper_Space
 70
     0
 10
0.0
 20
0.0
 30
0.0
  3
*Paper_Space
  1

  0
ENDBLK
  5
1D
330
1B
100
AcDbEntity
 67
     1
  8
0
100
AcDbBlockEnd
  0
BLOCK
  5
24
330
23
100
AcDbEntity
  8
0
100
AcDbBlockBegin
  2
*Paper_Space0
 70
     0
 10
0.0
 20
0.0
 30
0.0
  3
*Paper_Space0
  1

  0
ENDBLK
  5
25
330
23
100
AcDbEntity
  8
0
100
AcDbBlockEnd
  0
BLOCK
  5
89
330
88
100
AcDbEntity
  8
0
100
AcDbBlockBegin
  2
SW_CENTERMARKSYMBOL_0
 70
     0
 10
0.0
 20
0.0
 30
0.0
  3
SW_CENTERMARKSYMBOL_0
  1

  0
LINE
  5
8B
330
88
100
AcDbEntity
  8
FORMAT
 62
     0
100
AcDbLine
 10
0.0
 20
0.0
 30
0.0
 11
0.0
 21
2.5
 31
0.0
  0
LINE
  5
8C
330
88
100
AcDbEntity
  8
FORMAT
 62
     0
100
AcDbLine
 10
0.0
 20
0.0
 30
0.0
 11
-2.5
 21
0.0
 31
0.0
  0
LINE
  5
8D
330
88
100
AcDbEntity
  8
FORMAT
 62
     0
100
AcDbLine
 10
0.0
 20
0.0
 30
0.0
 11
0.0
 21
-2.5
 31
0.0
  0
LINE
  5
8E
330
88
100
AcDbEntity
  8
FORMAT
 62
     0
100
AcDbLine
 10
0.0
 20
0.0
 30
0.0
 11
2.5
 21
0.0
 31
0.0
  0
LINE
  5
8F
330
88
100
AcDbEntity
  8
FORMAT
 62
     0
100
AcDbLine
 10
0.0
 20
5.0
 30
0.0
 11
0.0
 21
160.0
 31
0.0
  0
LINE
  5
90
330
88
100
AcDbEntity
  8
FORMAT
 62
     0
100
AcDbLine
 10
-5.0
 20
0.0
 30
0.0
 11
-160.0
 21
0.0
 31
0.0
  0
LINE
  5
91
330
88
100
AcDbEntity
  8
FORMAT
 62
     0
100
AcDbLine
 10
0.0
 20
-5.0
 30
0.0
 11
0.0
 21
-160.0
 31
0.0
  0
LINE
  5
92
330
88
100
AcDbEntity
  8
FORMAT
 62
     0
100
AcDbLine
 10
5.0
 20
0.0
 30
0.0
 11
160.0
 21
0.0
 31
0.0
  0
ENDBLK
  5
8A
330
88
100
AcDbEntity
  8
0
100
AcDbBlockEnd
  0
ENDSEC
  0
SECTION
  2
ENTITIES
  0
CIRCLE
  5
83
330
1F
100
AcDbEntity
  8
0
  6
Continuous
 62
     7
370
    25
100
AcDbCircle
 10
130.6810329512
 20
112.0420513222
 30
0.0
 40
157.5
  0
CIRCLE
  5
84
330
1F
100
AcDbEntity
  8
0
  6
Continuous
 62
     7
370
    25
100
AcDbCircle
 10
130.6810329512
 20
112.0420513222
 30
0.0
 40
138.8
  0
CIRCLE
  5
85
330
1F
100
AcDbEntity
  8
0
  6
Continuous
 62
     7
370
    25
100
AcDbCircle
 10
130.6810329512
 20
112.0420513222
 30
0.0
 40
138.3957251500903
  0
CIRCLE
  5
86
330
1F
100
AcDbEntity
  8
0
  6
Continuous
 62
     7
370
    25
100
AcDbCircle
 10
130.6810329512
 20
112.0420513222
 30
0.0
 40
99.50427484990976
  0
CIRCLE
  5
87
330
1F
100
AcDbEntity
  8
0
  6
Continuous
 62
     7
370
    25
100
AcDbCircle
 10
130.6810329512
 20
112.0420513222
 30
0.0
 40
99.10000000000005
  0
INSERT
  5
93
330
1F
100
AcDbEntity
  8
FORMAT
 62
     7
100
AcDbBlockReference
  2
SW_CENTERMARKSYMBOL_0
 10
130.6810329512
 20
112.0420513222
 30
0.0
  0
ARC
  5
94
330
1F
100
AcDbEntity
  8
0
  6
Continuous
 62
     7
370
    25
100
AcDbCircle
 10
-373.4395028165
 20
267.5420513222
 30
0.0
 40
1.999999999999996
100
AcDbArc
 50
66.8014094864
 51
90.0
  0
ARC
  5
95
330
1F
100
AcDbEntity
  8
0
  6
Continuous
 62
     7
370
    25
100
AcDbCircle
 10
-373.4395028165
 20
-43.4579486778
 30
0.0
 40
1.99999999999999
100
AcDbArc
 50
270.0
 51
293.1985905136
  0
LINE
  5
96
330
1F
100
AcDbEntity
  8
0
  6
Continuous
 62
     7
370
    25
100
AcDbLine
 10
-373.4395012268
 20
269.5420501301
 30
0.0
 11
-523.0289801964
 21
269.5420501301
 31
0.0
  0
LINE
  5
97
330
1F
100
AcDbEntity
  8
0
  6
Continuous
 62
     7
370
    25
100
AcDbLine
 10
-523.0289801964
 20
-45.4579474857
 30
0.0
 11
-373.4395012268
 21
-45.4579474857
 31
0.0
  0
LINE
  5
98
330
1F
100
AcDbEntity
  8
0
  6
Continuous
 62
     7
370
    25
100
AcDbLine
 10
-372.6516656587
 20
-45.2962400844
 30
0.0
 11
-268.4063121685
 21
-0.6196605494
 31
0.0
  0
LINE
  5
99
330
1F
100
AcDbEntity
  8
0
  6
Continuous
 62
     7
370
    25
100
AcDbLine
 10
-268.4063121685
 20
224.7037631938
 30
0.0
 11
-372.6516656587
 21
269.3803427289
 31
0.0
  0
ARC
  5
9A
330
1F
100
AcDbEntity
  8
0
  6
Continuous
 62
     7
370
    25
100
AcDbCircle
 10
-267.6184720086
 20
226.5420513222
 30
0.0
 40
2.0
100
AcDbArc
 50
246.8014094864
 51
270.0
  0
ARC
  5
9B
330
1F
100
AcDbEntity
  8
0
  6
Continuous
 62
     7
370
    25
100
AcDbCircle
 10
-267.6184720086
 20
-2.4579486778
 30
0.0
 40
1.999999999999976
100
AcDbArc
 50
90.0
 51
113.1985905136
  0
LINE
  5
9C
330
1F
100
AcDbEntity
  8
0
  6
Continuous
 62
     7
370
    25
100
AcDbLine
 10
-148.0289801964
 20
224.542048342
 30
0.0
 11
-267.6184728751
 21
224.542048342
 31
0.0
  0
LINE
  5
9D
330
1F
100
AcDbEntity
  8
0
  6
Continuous
 62
     7
370
    25
100
AcDbLine
 10
-267.6184728751
 20
-0.4579456975
 30
0.0
 11
-148.0289801964
 21
-0.4579456975
 31
0.0
  0
LINE
  5
9E
330
1F
100
AcDbEntity
  8
0
  6
Continuous
 62
     7
370
    25
100
AcDbLine
 10
-523.0289801964
 20
269.5420501301
 30
0.0
 11
-523.0289801964
 21
-45.4579474857
 31
0.0
  0
LINE
  5
9F
330
1F
100
AcDbEntity
  8
0
  6
Continuous
 62
     7
370
    25
100
AcDbLine
 10
-148.0289801964
 20
224.542048342
 30
0.0
 11
-148.0289801964
 21
-0.4579456975
 31
0.0
  0
LINE
  5
A0
330
1F
100
AcDbEntity
  8
0
  6
Continuous
 62
     1
370
    25
100
AcDbLine
 10
-372.6516656587
 20
269.3803427289
 30
0.0
 11
-372.6516656587
 21
-45.2962400844
 31
0.0
  0
LINE
  5
A1
330
1F
100
AcDbEntity
  8
0
  6
Continuous
 62
     1
370
    25
100
AcDbLine
 10
-373.4395012268
 20
269.5420501301
 30
0.0
 11
-373.4395012268
 21
-45.4579474857
 31
0.0
  0
LINE
  5
A2
330
1F
100
AcDbEntity
  8
0
  6
Continuous
 62
     1
370
    25
100
AcDbLine
 10
-268.4063121685
 20
224.7037631938
 30
0.0
 11
-268.4063121685
 21
-0.6196605494
 31
0.0
  0
LINE
  5
A3
330
1F
100
AcDbEntity
  8
0
  6
Continuous
 62
     1
370
    25
100
AcDbLine
 10
-267.6184728751
 20
224.542048342
 30
0.0
 11
-267.6184728751
 21
-0.4579456975
 31
0.0
  0
ARC
  5
A4
330
1F
100
AcDbEntity
  8
0
  6
Continuous
 62
     7
370
    25
100
AcDbCircle
 10
286.1810329512
 20
603.8120941359
 30
0.0
 40
1.999999999999974
100
AcDbArc
 50
336.8014094864
 51
0.0
  0
ARC
  5
A5
330
1F
100
AcDbEntity
  8
0
  6
Continuous
 62
     7
370
    25
100
AcDbCircle
 10
-24.8189670488
 20
603.8120941359
 30
0.0
 40
1.999999999999975
100
AcDbArc
 50
180.0
 51
203.1985905136
  0
LINE
  5
A6
330
1F
100
AcDbEntity
  8
0
  6
Continuous
 62
     7
370
    25
100
AcDbLine
 10
288.1810317591
 20
603.8120925463
 30
0.0
 11
288.1810317591
 21
753.4015715158
 31
0.0
  0
LINE
  5
A7
330
1F
100
AcDbEntity
  8
0
  6
Continuous
 62
     7
370
    25
100
AcDbLine
 10
-26.8189658567
 20
753.4015715158
 30
0.0
 11
-26.8189658567
 21
603.8120925463
 31
0.0
  0
LINE
  5
A8
330
1F
100
AcDbEntity
  8
0
  6
Continuous
 62
     7
370
    25
100
AcDbLine
 10
-26.6572584555
 20
603.0242569781
 30
0.0
 11
18.0193210795
 21
498.778903488
 31
0.0
  0
LINE
  5
A9
330
1F
100
AcDbEntity
  8
0
  6
Continuous
 62
     7
370
    25
100
AcDbLine
 10
243.3427448228
 20
498.778903488
 30
0.0
 11
288.0193243578
 21
603.0242569781
 31
0.0
  0
ARC
  5
AA
330
1F
100
AcDbEntity
  8
0
  6
Continuous
 62
     7
370
    25
100
AcDbCircle
 10
245.1810329512
 20
497.9910633281
 30
0.0
 40
1.999999999999972
100
AcDbArc
 50
156.8014094864
 51
180.0
  0
ARC
  5
AB
330
1F
100
AcDbEntity
  8
0
  6
Continuous
 62
     7
370
    25
100
AcDbCircle
 10
16.1810329512
 20
497.9910633281
 30
0.0
 40
1.999999999999975
100
AcDbArc
 50
0.0
 51
23.1985905136
  0
LINE
  5
AC
330
1F
100
AcDbEntity
  8
0
  6
Continuous
 62
     7
370
    25
100
AcDbLine
 10
243.1810299709
 20
378.4015715158
 30
0.0
 11
243.1810299709
 21
497.9910641945
 31
0.0
  0
LINE
  5
AD
330
1F
100
AcDbEntity
  8
0
  6
Continuous
 62
     7
370
    25
100
AcDbLine
 10
18.1810359314
 20
497.9910641945
 30
0.0
 11
18.1810359314
 21
378.4015715158
 31
0.0
  0
LINE
  5
AE
330
1F
100
AcDbEntity
  8
0
  6
Continuous
 62
     7
370
    25
100
AcDbLine
 10
288.1810317591
 20
753.4015715158
 30
0.0
 11
-26.8189658567
 21
753.4015715158
 31
0.0
  0
LINE
  5
AF
330
1F
100
AcDbEntity
  8
0
  6
Continuous
 62
     7
370
    25
100
AcDbLine
 10
243.1810299709
 20
378.4015715158
 30
0.0
 11
18.1810359314
 21
378.4015715158
 31
0.0
  0
LINE
  5
B0
330
1F
100
AcDbEntity
  8
0
  6
Continuous
 62
     1
370
    25
100
AcDbLine
 10
288.0193243578
 20
603.0242569781
 30
0.0
 11
-26.6572584555
 21
603.0242569781
 31
0.0
  0
LINE
  5
B1
330
1F
100
AcDbEntity
  8
0
  6
Continuous
 62
     1
370
    25
100
AcDbLine
 10
288.1810317591
 20
603.8120925463
 30
0.0
 11
-26.8189658567
 21
603.8120925463
 31
0.0
  0
LINE
  5
B2
330
1F
100
AcDbEntity
  8
0
  6
Continuous
 62
     1
370
    25
100
AcDbLine
 10
243.3427448228
 20
498.778903488
 30
0.0
 11
18.0193210795
 21
498.778903488
 31
0.0
  0
LINE
  5
B3
330
1F
100
AcDbEntity
  8
0
  6
Continuous
 62
     1
370
    25
100
AcDbLine
 10
243.1810299709
 20
497.9910641945
 30
0.0
 11
18.1810359314
 21
497.9910641945
 31
0.0
  0
ARC
  5
B4
330
1F
100
AcDbEntity
  8
0
  6
Continuous
 62
     7
370
    25
100
AcDbCircle
 10
679.3984034081
 20
-43.4579486778
 30
0.0
 40
2.000000000000012
100
AcDbArc
 50
246.8014094864
 51
270.0
  0
ARC
  5
B5
330
1F
100
AcDbEntity
  8
0
  6
Continuous
 62
     7
370
    25
100
AcDbCircle
 10
679.3984034081
 20
267.5420513222
 30
0.0
 40
2.000000000000019
100
AcDbArc
 50
90.0
 51
113.1985905136
  0
LINE
  5
B6
330
1F
100
AcDbEntity
  8
0
  6
Continuous
 62
     7
370
    25
100
AcDbLine
 10
679.3984018184
 20
-45.4579474857
 30
0.0
 11
828.987880788
 21
-45.4579474857
 31
0.0
  0
LINE
  5
B7
330
1F
100
AcDbEntity
  8
0
  6
Continuous
 62
     7
370
    25
100
AcDbLine
 10
828.987880788
 20
269.5420501301
 30
0.0
 11
679.3984018184
 21
269.5420501301
 31
0.0
  0
LINE
  5
B8
330
1F
100
AcDbEntity
  8
0
  6
Continuous
 62
     7
370
    25
100
AcDbLine
 10
678.6105662502
 20
269.3803427289
 30
0.0
 11
574.3652127601
 21
224.7037631938
 31
0.0
  0
LINE
  5
B9
330
1F
100
AcDbEntity
  8
0
  6
Continuous
 62
     7
370
    25
100
AcDbLine
 10
574.3652127601
 20
-0.6196605494
 30
0.0
 11
678.6105662502
 21
-45.2962400844
 31
0.0
  0
ARC
  5
BA
330
1F
100
AcDbEntity
  8
0
  6
Continuous
 62
     7
370
    25
100
AcDbCircle
 10
573.5773726002
 20
-2.4579486778
 30
0.0
 40
1.999999999999999
100
AcDbArc
 50
66.8014094864
 51
90.0
  0
ARC
  5
BB
330
1F
100
AcDbEntity
  8
0
  6
Continuous
 62
     7
370
    25
100
AcDbCircle
 10
573.5773726002
 20
226.5420513222
 30
0.0
 40
2.0
100
AcDbArc
 50
270.0
 51
293.1985905137
  0
LINE
  5
BC
330
1F
100
AcDbEntity
  8
0
  6
Continuous
 62
     7
370
    25
100
AcDbLine
 10
453.987880788
 20
-0.4579456975
 30
0.0
 11
573.5773734667
 21
-0.4579456975
 31
0.0
  0
LINE
  5
BD
330
1F
100
AcDbEntity
  8
0
  6
Continuous
 62
     7
370
    25
100
AcDbLine
 10
573.5773734667
 20
224.542048342
 30
0.0
 11
453.987880788
 21
224.542048342
 31
0.0
  0
LINE
  5
BE
330
1F
100
AcDbEntity
  8
0
  6
Continuous
 62
     7
370
    25
100
AcDbLine
 10
828.987880788
 20
112.0420513222
 30
0.0
 11
828.987880788
 21
269.5420501301
 31
0.0
  0
LINE
  5
BF
330
1F
100
AcDbEntity
  8
0
  6
Continuous
 62
     7
370
    25
100
AcDbLine
 10
828.987880788
 20
-45.4579474857
 30
0.0
 11
828.987880788
 21
112.0420513222
 31
0.0
  0
LINE
  5
C0
330
1F
100
AcDbEntity
  8
0
  6
Continuous
 62
     7
370
    25
100
AcDbLine
 10
453.987880788
 20
112.0420513222
 30
0.0
 11
453.987880788
 21
224.542048342
 31
0.0
  0
LINE
  5
C1
330
1F
100
AcDbEntity
  8
0
  6
Continuous
 62
     7
370
    25
100
AcDbLine
 10
453.987880788
 20
-0.4579456975
 30
0.0
 11
453.987880788
 21
112.0420513222
 31
0.0
  0
LINE
  5
C2
330
1F
100
AcDbEntity
  8
0
  6
Continuous
 62
     1
370
    25
100
AcDbLine
 10
678.6105662502
 20
112.0420513222
 30
0.0
 11
678.6105662502
 21
269.3803427289
 31
0.0
  0
LINE
  5
C3
330
1F
100
AcDbEntity
  8
0
  6
Continuous
 62
     1
370
    25
100
AcDbLine
 10
678.6105662502
 20
-45.2962400844
 30
0.0
 11
678.6105662502
 21
112.0420513222
 31
0.0
  0
LINE
  5
C4
330
1F
100
AcDbEntity
  8
0
  6
Continuous
 62
     1
370
    25
100
AcDbLine
 10
679.3984018184
 20
112.0420513222
 30
0.0
 11
679.3984018184
 21
269.5420501301
 31
0.0
  0
LINE
  5
C5
330
1F
100
AcDbEntity
  8
0
  6
Continuous
 62
     1
370
    25
100
AcDbLine
 10
679.3984018184
 20
-45.4579474857
 30
0.0
 11
679.3984018184
 21
112.0420513222
 31
0.0
  0
LINE
  5
C6
330
1F
100
AcDbEntity
  8
0
  6
Continuous
 62
     1
370
    25
100
AcDbLine
 10
574.3652127601
 20
112.0420513222
 30
0.0
 11
574.3652127601
 21
224.7037631938
 31
0.0
  0
LINE
  5
C7
330
1F
100
AcDbEntity
  8
0
  6
Continuous
 62
     1
370
    25
100
AcDbLine
 10
574.3652127601
 20
-0.6196605494
 30
0.0
 11
574.3652127601
 21
112.0420513222
 31
0.0
  0
LINE
  5
C8
330
1F
100
AcDbEntity
  8
0
  6
Continuous
 62
     1
370
    25
100
AcDbLine
 10
573.5773734667
 20
112.0420513222
 30
0.0
 11
573.5773734667
 21
224.542048342
 31
0.0
  0
LINE
  5
C9
330
1F
100
AcDbEntity
  8
0
  6
Continuous
 62
     1
370
    25
100
AcDbLine
 10
573.5773734667
 20
-0.4579456975
 30
0.0
 11
573.5773734667
 21
112.0420513222
 31
0.0
  0
ARC
  5
CA
330
1F
100
AcDbEntity
  8
0
  6
Continuous
 62
     7
370
    25
100
AcDbCircle
 10
-24.8189670488
 20
-367.9969061787
 30
0.0
 40
1.99999999999999
100
AcDbArc
 50
156.8014094864
 51
180.0
  0
ARC
  5
CB
330
1F
100
AcDbEntity
  8
0
  6
Continuous
 62
     7
370
    25
100
AcDbCircle
 10
286.1810329512
 20
-367.9969061787
 30
0.0
 40
1.999999999999996
100
AcDbArc
 50
0.0
 51
23.1985905136
  0
LINE
  5
CC
330
1F
100
AcDbEntity
  8
0
  6
Continuous
 62
     7
370
    25
100
AcDbLine
 10
-26.8189658567
 20
-367.9969045891
 30
0.0
 11
-26.8189658567
 21
-517.5863835586
 31
0.0
  0
LINE
  5
CD
330
1F
100
AcDbEntity
  8
0
  6
Continuous
 62
     7
370
    25
100
AcDbLine
 10
288.1810317591
 20
-517.5863835586
 30
0.0
 11
288.1810317591
 21
-367.9969045891
 31
0.0
  0
LINE
  5
CE
330
1F
100
AcDbEntity
  8
0
  6
Continuous
 62
     7
370
    25
100
AcDbLine
 10
288.0193243578
 20
-367.2090690209
 30
0.0
 11
243.3427448228
 21
-262.9637155308
 31
0.0
  0
LINE
  5
CF
330
1F
100
AcDbEntity
  8
0
  6
Continuous
 62
     7
370
    25
100
AcDbLine
 10
18.0193210795
 20
-262.9637155308
 30
0.0
 11
-26.6572584555
 21
-367.2090690209
 31
0.0
  0
ARC
  5
D0
330
1F
100
AcDbEntity
  8
0
  6
Continuous
 62
     7
370
    25
100
AcDbCircle
 10
16.1810329512
 20
-262.1758753709
 30
0.0
 40
1.999999999999977
100
AcDbArc
 50
336.8014094864
 51
0.0
  0
ARC
  5
D1
330
1F
100
AcDbEntity
  8
0
  6
Continuous
 62
     7
370
    25
100
AcDbCircle
 10
245.1810329512
 20
-262.1758753709
 30
0.0
 40
1.999999999999972
100
AcDbArc
 50
180.0
 51
203.1985905136
  0
LINE
  5
D2
330
1F
100
AcDbEntity
  8
0
  6
Continuous
 62
     7
370
    25
100
AcDbLine
 10
18.1810359314
 20
-142.5863835586
 30
0.0
 11
18.1810359314
 21
-262.1758762373
 31
0.0
  0
LINE
  5
D3
330
1F
100
AcDbEntity
  8
0
  6
Continuous
 62
     7
370
    25
100
AcDbLine
 10
243.1810299709
 20
-262.1758762373
 30
0.0
 11
243.1810299709
 21
-142.5863835586
 31
0.0
  0
LINE
  5
D4
330
1F
100
AcDbEntity
  8
0
  6
Continuous
 62
     7
370
    25
100
AcDbLine
 10
-26.8189658567
 20
-517.5863835586
 30
0.0
 11
288.1810317591
 21
-517.5863835586
 31
0.0
  0
LINE
  5
D5
330
1F
100
AcDbEntity
  8
0
  6
Continuous
 62
     7
370
    25
100
AcDbLine
 10
18.1810359314
 20
-142.5863835586
 30
0.0
 11
243.1810299709
 21
-142.5863835586
 31
0.0
  0
LINE
  5
D6
330
1F
100
AcDbEntity
  8
0
  6
Continuous
 62
     1
370
    25
100
AcDbLine
 10
-26.6572584555
 20
-367.2090690209
 30
0.0
 11
288.0193243578
 21
-367.2090690209
 31
0.0
  0
LINE
  5
D7
330
1F
100
AcDbEntity
  8
0
  6
Continuous
 62
     1
370
    25
100
AcDbLine
 10
-26.8189658567
 20
-367.9969045891
 30
0.0
 11
288.1810317591
 21
-367.9969045891
 31
0.0
  0
LINE
  5
D8
330
1F
100
AcDbEntity
  8
0
  6
Continuous
 62
     1
370
    25
100
AcDbLine
 10
18.0193210795
 20
-262.9637155308
 30
0.0
 11
243.3427448228
 21
-262.9637155308
 31
0.0
  0
LINE
  5
D9
330
1F
100
AcDbEntity
  8
0
  6
Continuous
 62
     1
370
    25
100
AcDbLine
 10
18.1810359314
 20
-262.1758762373
 30
0.0
 11
243.1810299709
 21
-262.1758762373
 31
0.0
  0
LINE
  5
DA
330
1F
100
AcDbEntity
  8
0
  6
Continuous
 62
     7
370
    25
100
AcDbLine
 10
675.9620666529
 20
-186.8908873316
 30
0.0
 11
570.1863316794
 21
-125.8278552946
 31
0.0
  0
LINE
  5
DB
330
1F
100
AcDbEntity
  8
0
  6
Continuous
 62
     7
370
    25
100
AcDbLine
 10
412.6991320547
 20
-398.6332525829
 30
0.0
 11
518.4748670282
 21
-459.69628462
 31
0.0
  0
SPLINE
  5
DC
330
1F
100
AcDbEntity
  8
0
  6
Continuous
 62
     7
370
    25
100
AcDbSpline
210
0.0
220
0.0
230
1.0
 70
     8
 71
     3
 72
     9
 73
     5
 74
     0
 42
0.000000001
 43
0.00000001
 40
0.0
 40
0.0
 40
0.0
 40
0.0
 40
0.7563059146232387
 40
1.0
 40
1.0
 40
1.0
 40
1.0
 10
688.964893619957
 20
-197.3479499482018
 30
0.0
 10
688.0542735330425
 20
-196.3701829765083
 30
0.0
 10
686.850236820771
 20
-195.077363559407
 30
0.0
 10
685.5327258137878
 20
-193.9446844497868
 30
0.0
 10
685.2116561739672
 20
-193.6686572501426
 30
0.0
  0
SPLINE
  5
DD
330
1F
100
AcDbEntity
  8
0
  6
Continuous
 62
     7
370
    25
100
AcDbSpline
210
0.0
220
0.0
230
1.0
 70
     8
 71
     3
 72
    10
 73
     6
 74
     0
 42
0.000000001
 43
0.00000001
 40
0.0
 40
0.0
 40
0.0
 40
0.0
 40
0.0914996005470838
 40
0.811592671942132
 40
1.0
 40
1.0
 40
1.0
 40
1.0
 10
529.2297654881622
 20
-464.4168581683823
 30
0.0
 10
529.3963591627515
 20
-464.4756300368517
 30
0.0
 10
530.874029061638
 20
-464.9969308674662
 30
0.0
 10
532.7648528590773
 20
-465.4952094044134
 30
0.0
 10
534.5317915761332
 20
-465.8251608151732
 30
0.0
 10
534.898224219116
 20
-465.8935870522201
 30
0.0
  0
LINE
  5
DE
330
1F
100
AcDbEntity
  8
0
  6
Continuous
 62
     7
370
    25
100
AcDbLine
 10
546.6566760206
 20
-467.2341310969
 30
0.0
 11
634.8845995926
 21
-469.0065614862
 31
0.0
  0
LINE
  5
DF
330
1F
100
AcDbEntity
  8
0
  6
Continuous
 62
     7
370
    25
100
AcDbLine
 10
742.2388973619
 20
-283.0433146599
 30
0.0
 11
696.582873268
 21
-207.5261976301
 31
0.0
  0
LINE
  5
E0
330
1F
100
AcDbEntity
  8
0
  6
Continuous
 62
     7
370
    25
100
AcDbLine
 10
812.8532024967
 20
-317.8765754393
 30
0.0
 11
736.7302199678
 21
-273.9317130181
 31
0.0
  0
LINE
  5
E1
330
1F
100
AcDbEntity
  8
0
  6
Continuous
 62
     7
370
    25
100
AcDbLine
 10
624.2393645983
 20
-468.7927119504
 30
0.0
 11
700.3623471272
 21
-512.7375743717
 31
0.0
  0
LWPOLYLINE
  5
E2
330
1F
100
AcDbEntity
  8
0
  6
Continuous
 62
     7
370
    25
100
AcDbPolyline
 90
      134
 70
   128
 43
0.0
 10
380.0734146731
 20
-326.5226922582
 10
380.1976635825
 20
-320.377659569
 10
380.5701574296
 20
-314.1028695764
 10
381.1900427408
 20
-307.7123382919
 10
382.0559392068
 20
-301.2203204628
 10
383.1659291459
 20
-294.6412966435
 10
384.517525894
 20
-287.989955702
 10
386.1077054149
 20
-281.2811370273
 10
387.93293791
 20
-274.529806198
 10
389.9891456716
 20
-267.7510291221
 10
392.2717241565
 20
-260.9599385792
 10
394.7756052063
 20
-254.1716733889
 10
397.4951727533
 20
-247.4013996963
 10
400.4243892615
 20
-240.6642106021
 10
403.5566903593
 20
-233.9751504884
 10
406.8851060115
 20
-227.3491328993
 10
410.4022025678
 20
-220.8009557451
 10
414.1001301777
 20
-214.3452191768
 10
417.9706438638
 20
-207.9963377554
 10
422.005098254
 20
-201.7684704885
 10
426.194494996
 20
-195.6755238773
 10
430.5294880261
 20
-189.7310819537
 10
435.0004046427
 20
-183.9484062832
 10
439.597261311
 20
-178.3404268398
 10
444.3098058102
 20
-172.9196203367
 10
449.1275251356
 20
-167.6981151705
 10
454.0396639384
 20
-162.6875469352
 10
459.0352666721
 20
-157.8990949282
 10
464.103180227
 20
-153.3434441275
 10
469.2321013451
 20
-149.030769987
 10
474.4105805716
 20
-144.9706874855
 10
479.6270670358
 20
-141.1722496103
 10
484.8699176709
 20
-137.6439542023
 10
490.1274352446
 20
-134.3936489964
 10
495.3878879512
 20
-131.4286054836
 10
500.6395370701
 20
-128.7554299393
 10
505.8706649544
 20
-126.3800837683
 10
511.0695985733
 20
-124.3078820813
 10
516.2247363483
 20
-122.5434295332
 10
521.3245761409
 20
-121.0906771703
 10
526.357736985
 20
-119.9528733826
 10
531.3129920138
 20
-119.132532728
 10
536.1792776796
 20
-118.6315036141
 10
540.9457385347
 20
-118.4509059445
 10
545.6017430365
 20
-118.591121995
 10
550.1368914503
 20
-119.0518770231
 10
554.5410738006
 20
-119.8320963066
 10
558.8044593352
 20
-120.9300815697
 10
562.9175334029
 20
-122.343349769
 10
566.8711185274
 20
-124.068766936
 10
570.6563954808
 20
-126.1024751755
 10
574.2649138199
 20
-128.4399413357
 10
577.6886234966
 20
-131.0759448439
 10
580.9198906631
 20
-134.0046050849
 10
583.951492403
 20
-137.2193905255
 10
586.7766694157
 20
-140.7131248036
 10
589.3891207472
 20
-144.4780080205
 10
591.7830195958
 20
-148.5056441193
 10
593.9530133116
 20
-152.7870469682
 10
595.8942760806
 20
-157.3126555748
 10
597.6024562406
 20
-162.0723857928
 10
599.0737605753
 20
-167.0555999116
 10
600.3049016305
 20
-172.2511887805
 10
601.2931187875
 20
-177.6475581234
 10
602.0362204103
 20
-183.2326650443
 10
602.5325416984
 20
-188.9940492025
 10
602.7809868336
 20
-194.9188474555
 10
602.7809868336
 20
-200.9938474675
 10
602.5325416984
 20
-207.2054943679
 10
602.0362204103
 20
-213.5399188878
 10
601.2931187875
 20
-219.98299268
 10
600.3049016305
 20
-226.5203332662
 10
599.0737605753
 20
-233.1373673411
 10
597.6024562406
 20
-239.8193132861
 10
595.8942760806
 20
-246.551266337
 10
593.9530133116
 20
-253.3182092285
 10
591.7830195958
 20
-260.1050334923
 10
589.3891207472
 20
-266.8966063696
 10
586.7766694157
 20
-273.6777616908
 10
583.951492403
 20
-280.4333759167
 10
580.9198906631
 20
-287.1483742221
 10
577.6886234966
 20
-293.8077761223
 10
574.2649138199
 20
-300.3967106828
 10
570.6563954808
 20
-306.900483435
 10
566.8711185274
 20
-313.3045794186
 10
562.9175334029
 20
-319.5947088078
 10
558.8044593352
 20
-325.7568312433
 10
554.5410738006
 20
-331.7772166685
 10
550.1368914503
 20
-337.6423966572
 10
545.6017430365
 20
-343.3393225888
 10
540.9457385347
 20
-348.8552470119
 10
536.1792776796
 20
-354.1778879059
 10
531.3129920138
 20
-359.2953526287
 10
526.357736985
 20
-364.1962276509
 10
521.3245761409
 20
-368.8695876797
 10
516.2247363483
 20
-373.3049850086
 10
511.0695985733
 20
-377.4925278436
 10
505.8706649544
 20
-381.4228871449
 10
500.6395370701
 20
-385.0872726698
 10
495.3878879512
 20
-388.4775221346
 10
490.1274352446
 20
-391.5860680368
 10
484.8699176709
 20
-394.4059634137
 10
479.6270670358
 20
-396.9309345016
 10
474.4105805716
 20
-399.1553236986
 10
469.2321013451
 20
-401.0741860466
 10
464.103180227
 20
-402.6832381815
 10
459.0352666721
 20
-403.9788758231
 10
454.0396639384
 20
-404.9582239614
 10
449.1275251356
 20
-405.6190904679
 10
444.3098058102
 20
-405.9600056354
 10
439.597261311
 20
-405.9801871962
 10
435.0004046427
 20
-405.6796254905
 10
430.5294880261
 20
-405.058960269
 10
426.194494996
 20
-404.1195947621
 10
422.005098254
 20
-402.8636226712
 10
417.9706438638
 20
-401.2938372932
 10
414.1001301777
 20
-399.4137558526
 10
410.4022025678
 20
-397.2275556231
 10
406.8851060115
 20
-394.7401317173
 10
403.5566903593
 20
-391.9570210416
 10
400.4243892615
 20
-388.8844387965
 10
397.4951727533
 20
-385.5292510948
 10
394.7756052063
 20
-381.8989232563
 10
392.2717241565
 20
-378.0015775912
 10
389.9891456716
 20
-373.8458960707
 10
387.93293791
 20
-369.4411659434
 10
386.1077054149
 20
-364.7972036962
 10
384.517525894
 20
-359.9243672163
 10
383.1659291459
 20
-354.8335466637
 10
382.0559392068
 20
-349.5360899492
 10
381.1900427408
 20
-344.0438148995
 10
380.5701574296
 20
-338.3689879611
 10
380.1976635825
 20
-332.5242702101
 10
380.0734146731
 20
-326.5226922582
  0
LWPOLYLINE
  5
E3
330
1F
100
AcDbEntity
  8
0
  6
Continuous
 62
     7
370
    25
100
AcDbPolyline
 90
      126
 70
   128
 43
0.0
 10
393.2963140438
 20
-318.8892749333
 10
393.420278462
 20
-313.1232284051
 10
393.7918450785
 20
-307.2286290863
 10
394.4100971993
 20
-301.2203542068
 10
395.2734648543
 20
-295.1135866411
 10
396.3797564074
 20
-288.923758257
 10
397.7261901667
 20
-282.6664978268
 10
399.309362774
 20
-276.3576120128
 10
401.1252702788
 20
-270.0130427834
 10
403.169323943
 20
-263.648814182
 10
405.4363660459
 20
-257.2810019102
 10
407.9206698845
 20
-250.9256937836
 10
410.6159555784
 20
-244.5989410636
 10
413.5154164116
 20
-238.3167310834
 10
416.6117293691
 20
-232.0949233698
 10
419.8970709421
 20
-225.9492466032
 10
423.36314347
 20
-219.8952164899
 10
427.0011909448
 20
-213.9481327215
 10
430.8020200853
 20
-208.1230120567
 10
434.7560372151
 20
-202.434573115
 10
438.8532482626
 20
-196.8971816234
 10
443.0833061767
 20
-191.5248291285
 10
447.435524097
 20
-186.3310828061
 10
451.8989069645
 20
-181.3290732979
 10
456.4621804971
 20
-176.53142323
 10
461.1138201659
 20
-171.9502487367
 10
465.8420722686
 20
-167.5971412113
 10
470.634992125
 20
-163.4830844196
 10
475.4804756868
 20
-159.6184605862
 10
480.3662819289
 20
-156.013049636
 10
485.280067093
 20
-152.6759607563
 10
490.2094200022
 20
-149.6156120098
 10
495.1418883209
 20
-146.8397395102
 10
500.0650123047
 20
-144.3553536037
 10
504.9663555873
 20
-142.1687332637
 10
509.8335368736
 20
-140.2853956272
 10
514.6542631133
 20
-138.7101011791
 10
519.4163512328
 20
-137.4468290392
 10
524.1077801608
 20
-136.4987712631
 10
528.7166908278
 20
-135.8683328425
 10
533.2314454352
 20
-135.5570853228
 10
537.6406406264
 20
-135.5658322037
 10
541.9331285598
 20
-135.8945420206
 10
546.0980801297
 20
-136.5423909365
 10
550.1249638921
 20
-137.5077323216
 10
554.0036171884
 20
-138.7881408666
 10
557.7242303395
 20
-140.3803730372
 10
561.2774098665
 20
-142.2804096661
 10
564.654183759
 20
-144.4834529114
 10
567.8460225487
 20
-146.9839323427
 10
570.8448551139
 20
-149.7755323187
 10
573.6431108271
 20
-152.8512102428
 10
576.2337248228
 20
-156.2031874374
 10
578.6101432659
 20
-159.822994773
 10
580.7663707674
 20
-163.7015000485
 10
582.6969703837
 20
-167.8288897406
 10
584.3970372753
 20
-172.1947541731
 10
585.862304074
 20
-176.7880510243
 10
587.0890618569
 20
-181.5971828871
 10
588.074202294
 20
-186.6100033566
 10
588.8152387212
 20
-191.8138520132
 10
589.3103061405
 20
-197.1955772367
 10
589.5581612199
 20
-202.7415810734
 10
589.5581612199
 20
-208.4378633413
 10
589.3103061405
 20
-214.2700345614
 10
588.8152387212
 20
-220.2233524606
 10
588.074202294
 20
-226.2827835645
 10
587.0890618569
 20
-232.433022972
 10
585.862304074
 20
-238.6585392223
 10
584.3970372753
 20
-244.9435971091
 10
582.6969703837
 20
-251.2723169941
 10
580.7663707674
 20
-257.6287295572
 10
578.6101432659
 20
-263.9967621148
 10
576.2337248228
 20
-270.3603237823
 10
573.6431108271
 20
-276.7033602299
 10
570.8448551139
 20
-283.0098354309
 10
567.8460225487
 20
-289.263813788
 10
564.654183759
 20
-295.4495118437
 10
561.2774098665
 20
-301.5512952384
 10
557.7242303395
 20
-307.5537456268
 10
554.0036171884
 20
-313.4417063044
 10
550.1249638921
 20
-319.2003126242
 10
546.0980801297
 20
-324.8149950374
 10
541.9331285598
 20
-330.2715946788
 10
537.6406406264
 20
-335.5563055722
 10
533.2314454352
 20
-340.6558008611
 10
528.7166908278
 20
-345.5571780573
 10
524.1077801608
 20
-350.2480746251
 10
519.4163512328
 20
-354.7166253935
 10
514.6542631133
 20
-358.9515431641
 10
509.8335368736
 20
-362.942140759
 10
504.9663555873
 20
-366.6783310207
 10
500.0650123047
 20
-370.1506811802
 10
495.1418883209
 20
-373.3504132354
 10
490.2094200022
 20
-376.2694474371
 10
485.280067093
 20
-378.9004084167
 10
480.3662819289
 20
-381.2366551271
 10
475.4804756868
 20
-383.2722759913
 10
470.634992125
 20
-385.0021283966
 10
465.8420722686
 20
-386.4218590811
 10
461.1138201659
 20
-387.5278752328
 10
456.4621804971
 20
-388.3173695832
 10
451.8989069645
 20
-388.7883629898
 10
447.435524097
 20
-388.939665649
 10
443.0833061767
 20
-388.7708831781
 10
438.8532482626
 20
-388.2824515935
 10
434.7560372151
 20
-387.4755992852
 10
430.8020200853
 20
-386.3523713482
 10
427.0011909448
 20
-384.9155946005
 10
423.36314347
 20
-383.1689110386
 10
419.8970709421
 20
-381.1167230842
 10
416.6117293691
 20
-378.7642209579
 10
413.5154164116
 20
-376.1173400906
 10
410.6159555784
 20
-373.1827763317
 10
407.9206698845
 20
-369.967934235
 10
405.4363660459
 20
-366.4809422666
 10
403.169323943
 20
-362.7306010925
 10
401.1252702788
 20
-358.7263866174
 10
399.309362774
 20
-354.4784195656
 10
397.7261901667
 20
-349.9974259363
 10
396.3797564074
 20
-345.2947248347
 10
395.2734648543
 20
-340.3821934898
 10
394.4100971993
 20
-335.2722490007
 10
393.7918450785
 20
-329.9777928258
 10
393.420278462
 20
-324.5121951909
 10
393.2963140438
 20
-318.8892749333
  0
ARC
  5
E4
330
1F
100
AcDbEntity
  8
0
  6
Continuous
 62
     7
370
    25
100
AcDbCircle
 10
649.3465857372
 20
-232.9349998781
 30
0.0
 40
53.18311879311167
100
AcDbArc
 50
47.8941466702
 51
59.9702373153
  0
ARC
  5
E5
330
1F
100
AcDbEntity
  8
0
  6
Continuous
 62
     7
370
    25
100
AcDbCircle
 10
545.0792404049
 20
-413.5322503176
 30
0.0
 40
53.28142965265717
100
AcDbArc
 50
240.0451148709
 51
252.3942127608
  0
ARC
  5
E6
330
1F
100
AcDbEntity
  8
0
  6
Continuous
 62
     7
370
    25
100
AcDbCircle
 10
635.7155473509
 20
-245.0212397982
 30
0.0
 40
71.45927300318722
100
AcDbArc
 50
14.9414397012
 51
41.631925997
  0
ARC
  5
E7
330
1F
100
AcDbEntity
  8
0
  6
Continuous
 62
     7
370
    25
100
AcDbCircle
 10
548.5785921947
 20
-395.6720670417
 30
0.0
 40
71.55313805912434
100
AcDbArc
 50
259.1612367475
 51
283.6770367361
  0
ARC
  5
E8
330
1F
100
AcDbEntity
  8
0
  6
Continuous
 62
     7
370
    25
100
AcDbCircle
 10
695.3532340141
 20
-311.0927364389
 30
0.0
 40
54.63547830582505
100
AcDbArc
 50
19.4793778485
 51
30.8900397297
  0
ARC
  5
E9
330
1F
100
AcDbEntity
  8
0
  6
Continuous
 62
     7
370
    25
100
AcDbCircle
 10
635.6914106094
 20
-413.481833616
 30
0.0
 40
55.53058930968721
100
AcDbArc
 50
269.1675130187
 51
282.7497466139
  0
LWPOLYLINE
  5
EA
330
1F
100
AcDbEntity
  8
0
  6
Continuous
 62
     7
370
    25
100
AcDbPolyline
 90
       58
 70
   128
 43
0.0
 10
812.8532024967
 20
-317.8765754393
 10
812.8577754298
 20
-317.8792161956
 10
815.9232474309
 20
-319.8538267221
 10
818.8020879184
 20
-322.1287630343
 10
821.4852458567
 20
-324.6968759318
 10
823.9642708026
 20
-327.550082422
 10
826.2313708574
 20
-330.6794052699
 10
828.2794073987
 20
-334.074997332
 10
830.1019424954
 20
-337.7261719798
 10
831.6932336395
 20
-341.6214487266
 10
833.0482811609
 20
-345.7485669205
 10
834.1628176912
 20
-350.0945420177
 10
835.0333345055
 20
-354.6457005662
 10
835.6570973267
 20
-359.3877212722
 10
836.0321410582
 20
-364.3056859509
 10
836.1572855881
 20
-369.384119832
 10
836.0321410582
 20
-374.6070425119
 10
835.6570973267
 20
-379.958023466
 10
835.0333345055
 20
-385.4202253959
 10
834.1628176912
 20
-390.9764612644
 10
833.0482811609
 20
-396.6092528489
 10
831.6932336395
 20
-402.3008756096
 10
830.1019424954
 20
-408.033418004
 10
828.2794073987
 20
-413.7888468841
 10
826.2313708574
 20
-419.5490516047
 10
823.9642708026
 20
-425.29591246
 10
821.4852458567
 20
-431.0113402286
 10
818.8020879184
 20
-436.6773613408
 10
815.9232474309
 20
-442.27613613
 10
812.8577754298
 20
-447.7900652925
 10
809.6153182751
 20
-453.2017898864
 10
806.2060860408
 20
-458.494276501
 10
802.6407945632
 20
-463.6508872139
 10
798.9306680749
 20
-468.6553841535
 10
795.0873759846
 20
-473.4920329168
 10
791.1230144377
 20
-478.1456071298
 10
787.0500562672
 20
-482.6014720941
 10
782.8813141152
 20
-486.8455999925
 10
778.6299048711
 20
-490.8646451716
 10
774.309206208
 20
-494.6459570656
 10
769.9328131188
 20
-498.1776357059
 10
765.514494452
 20
-501.4485750634
 10
761.0681514237
 20
-504.4484809158
 10
756.607774812
 20
-507.1679138092
 10
752.1473982002
 20
-509.5983221343
 10
747.7010551719
 20
-511.7320546698
 10
743.2827365052
 20
-513.5623974611
 10
738.906343416
 20
-515.0835947281
 10
734.5856447529
 20
-516.2908553258
 10
730.3342355088
 20
-517.180382778
 10
726.1654933567
 20
-517.749382118
 10
722.0925351863
 20
-517.996054561
 10
718.1281736394
 20
-517.9196347625
 10
714.284881549
 20
-517.5203565947
 10
710.5747550607
 20
-516.799480519
 10
707.0094635831
 20
-515.7592677262
 10
703.6002313489
 20
-514.4029968646
 10
700.3623471272
 20
-512.7375743717
  0
LWPOLYLINE
  5
EB
330
1F
100
AcDbEntity
  8
0
  6
Continuous
 62
     1
370
    25
100
AcDbPolyline
 90
       63
 70
   128
 43
0.0
 10
685.0059953583
 20
-193.4780533409
 10
686.6956256366
 20
-195.0676371219
 10
689.7272273766
 20
-198.2824225625
 10
692.5524043892
 20
-201.7761568406
 10
695.1648557208
 20
-205.5410400576
 10
697.5587545693
 20
-209.5686761564
 10
699.7287482852
 20
-213.8500790052
 10
701.6700110542
 20
-218.3756876118
 10
703.3781912142
 20
-223.1354178299
 10
704.8494955489
 20
-228.1186319486
 10
706.080636604
 20
-233.3142208175
 10
707.068853761
 20
-238.7105901605
 10
707.8119553838
 20
-244.2956970814
 10
708.3082766719
 20
-250.0570812395
 10
708.5567218072
 20
-255.9818794925
 10
708.5567218072
 20
-262.0568795046
 10
708.3082766719
 20
-268.268526405
 10
707.8119553838
 20
-274.6029509248
 10
707.068853761
 20
-281.0460247171
 10
706.080636604
 20
-287.5833653033
 10
704.8494955489
 20
-294.2003993782
 10
703.3781912142
 20
-300.8823453232
 10
701.6700110542
 20
-307.614298374
 10
699.7287482852
 20
-314.3812412656
 10
697.5587545693
 20
-321.1680655293
 10
695.1648557208
 20
-327.9596384066
 10
692.5524043892
 20
-334.7407937278
 10
689.7272273766
 20
-341.4964079537
 10
686.6956256366
 20
-348.2114062591
 10
683.4643584702
 20
-354.8708081593
 10
680.0406487935
 20
-361.4597427199
 10
676.4321304544
 20
-367.963515472
 10
672.646853501
 20
-374.3676114556
 10
668.6932683764
 20
-380.6577408448
 10
664.5801943087
 20
-386.8198632804
 10
660.3168087742
 20
-392.8402487055
 10
655.9126264238
 20
-398.7054286942
 10
651.3774780101
 20
-404.4023546258
 10
646.7214735082
 20
-409.918279049
 10
641.9550126532
 20
-415.240919943
 10
637.0887269874
 20
-420.3583846657
 10
632.1334719586
 20
-425.2592596879
 10
627.1003111145
 20
-429.9326197167
 10
622.0004713218
 20
-434.3680170456
 10
616.8453335469
 20
-438.5555598807
 10
611.646399928
 20
-442.485919182
 10
606.4152720437
 20
-446.1503047069
 10
601.1636229247
 20
-449.5405541717
 10
595.9031702181
 20
-452.6491000739
 10
590.6456526444
 20
-455.4689954508
 10
585.4028020093
 20
-457.9939665386
 10
580.1863155451
 20
-460.2183557356
 10
575.0078363186
 20
-462.1372180836
 10
569.8789152005
 20
-463.7462702185
 10
564.8110016456
 20
-465.0419078602
 10
559.8153989119
 20
-466.0212559984
 10
554.9032601091
 20
-466.6821225049
 10
550.0855407837
 20
-467.0230376724
 10
545.3729962846
 20
-467.0432192333
 10
540.7761396163
 20
-466.7426575276
 10
536.3052229997
 20
-466.1219923061
 10
531.9702299695
 20
-465.1826267991
 10
528.9634105765
 20
-464.3179842867
  0
LWPOLYLINE
  5
EC
330
1F
100
AcDbEntity
  8
0
  6
Continuous
 62
     1
370
    25
100
AcDbPolyline
 90
       30
 70
   128
 43
0.0
 10
498.9207102211
 20
-370.920017558
 10
499.13216096
 20
-368.040299032
 10
499.7504130808
 20
-362.0320241525
 10
500.6137807359
 20
-355.9252565868
 10
501.720072289
 20
-349.7354282026
 10
503.0665060483
 20
-343.4781677724
 10
504.6496786556
 20
-337.1692819585
 10
506.4655861604
 20
-330.824712729
 10
508.5096398245
 20
-324.4604841277
 10
510.7766819274
 20
-318.0926718559
 10
513.2609857661
 20
-311.7373637293
 10
515.95627146
 20
-305.4106110093
 10
518.8557322932
 20
-299.128401029
 10
521.9520452507
 20
-292.9065933155
 10
525.2373868237
 20
-286.7609165489
 10
528.7034593516
 20
-280.7068864355
 10
532.3415068264
 20
-274.7598026672
 10
536.1423359669
 20
-268.9346820024
 10
540.0963530966
 20
-263.2462430606
 10
544.1935641442
 20
-257.7088515691
 10
548.4236220583
 20
-252.3364990741
 10
552.7758399786
 20
-247.1427527518
 10
557.2392228461
 20
-242.1407432436
 10
561.8024963787
 20
-237.3430931757
 10
566.4541360475
 20
-232.7619186823
 10
571.1823881502
 20
-228.408811157
 10
575.9753080066
 20
-224.2947543653
 10
580.8207915684
 20
-220.4301305318
 10
585.7065978105
 20
-216.8247195816
 10
589.3050654433
 20
-214.3527551151
  0
LWPOLYLINE
  5
ED
330
1F
100
AcDbEntity
  8
0
  6
Continuous
 62
     1
370
    25
100
AcDbPolyline
 90
       47
 70
   128
 43
0.0
 10
704.7587718233
 20
-226.5967763703
 10
705.2960703848
 20
-228.5379509024
 10
706.5259470345
 20
-233.7282012033
 10
707.5131526671
 20
-239.1190312396
 10
708.25548511
 20
-244.6984072399
 10
708.7513006359
 20
-250.4538734284
 10
708.9994823533
 20
-256.3725932768
 10
708.9994823533
 20
-262.4413559722
 10
708.7513006359
 20
-268.6466203323
 10
708.25548511
 20
-274.9745429419
 10
707.5131526671
 20
-281.4109977373
 10
706.5259470345
 20
-287.9416311357
 10
705.2960703848
 20
-294.551866791
 10
703.8262833367
 20
-301.2269504612
 10
702.1198522709
 20
-307.9519925895
 10
700.1805914772
 20
-314.711985038
 10
698.0128210076
 20
-321.4918436703
 10
695.6213772129
 20
-328.2764448542
 10
693.0116022063
 20
-335.0506406702
 10
690.1893227895
 20
-341.7993197464
 10
687.1608399163
 20
-348.5074194251
 10
683.9328918142
 20
-355.1599835544
 10
680.512696131
 20
-361.7421503249
 10
676.9078814462
 20
-368.2392465605
 10
673.1264925396
 20
-374.6367664258
 10
669.1769640492
 20
-380.9204413866
 10
665.068115203
 20
-387.0762371674
 10
660.8091076724
 20
-393.0904328354
 10
656.4094455715
 20
-398.9496086333
 10
651.8789543846
 20
-404.640670312
 10
647.22773355
 20
-410.1509373402
 10
642.4661617294
 20
-415.4681155275
 10
637.6048730993
 20
-420.5803228787
 10
632.6547099366
 20
-425.4761656352
 10
627.6267147157
 20
-430.1447306698
 10
622.532111669
 20
-434.5755717964
 10
617.3822659577
 20
-438.7588185127
 10
612.1886705005
 20
-442.6851349337
 10
606.9629137052
 20
-446.345762755
 10
601.7166560902
 20
-449.7325347486
 10
596.461604601
 20
-452.83788959
 10
591.2094852813
 20
-455.6548876345
 10
585.9720162719
 20
-458.177263007
 10
580.7608864087
 20
-460.3993751203
 10
575.5877242706
 20
-462.3162630451
 10
570.4640688743
 20
-463.9236624277
 10
565.4972419014
 20
-465.1962416733
  0
LWPOLYLINE
  5
EE
330
1F
100
AcDbEntity
  8
0
  6
Continuous
 62
     1
370
    25
100
AcDbPolyline
 90
       41
 70
   128
 43
0.0
 10
746.8614636078
 20
-292.8735769132
 10
748.0385302563
 20
-296.5100672933
 10
749.1546683669
 20
-300.8622889829
 10
750.0264390499
 20
-305.4199876299
 10
750.6510974917
 20
-310.1688259698
 10
751.0266785955
 20
-315.0938607224
 10
751.1520075179
 20
-320.1795920228
 10
751.0266785955
 20
-325.4100250169
 10
750.6510974917
 20
-330.7686964817
 10
750.0264390499
 20
-336.238750107
 10
749.1546683669
 20
-341.8029737601
 10
748.0385302563
 20
-347.4438610822
 10
746.6815334432
 20
-353.1436662407
 10
745.0879558326
 20
-358.8844457546
 10
743.2628023629
 20
-364.6481482253
 10
741.2118208105
 20
-370.4166356313
 10
738.9414649117
 20
-376.1717548081
 10
736.4588732888
 20
-381.895401325
 10
733.7718589139
 20
-387.5695620701
 10
730.8888774985
 20
-393.1763912937
 10
727.8190011517
 20
-398.6982410244
 10
724.5718867702
 20
-404.1177401539
 10
721.1577496965
 20
-409.4178400627
 10
717.5873373768
 20
-414.5818602455
 10
713.8718766779
 20
-419.5935552263
 10
710.0230607162
 20
-424.4371525812
 10
706.0529988081
 20
-429.0974183327
 10
701.9741848599
 20
-433.559687366
 10
697.799452587
 20
-437.8099136148
 10
693.5419320499
 20
-441.8347377384
 10
689.2150233121
 20
-445.621484078
 10
684.8323398057
 20
-449.1582420202
 10
680.4076694772
 20
-452.4338823435
 10
675.9549352744
 20
-455.4380982801
 10
671.4881470733
 20
-458.1614454348
 10
667.0213588723
 20
-460.595342162
 10
662.5686246695
 20
-462.7321437063
 10
658.143954341
 20
-464.5651190044
 10
653.7612708346
 20
-466.0884997306
 10
649.4343620968
 20
-467.2974958823
 10
647.9466297109
 20
-467.6432216508
  0
LWPOLYLINE
  5
EF
330
1F
100
AcDbEntity
  8
0
  6
Continuous
 62
     1
370
    25
100
AcDbPolyline
 90
       30
 70
   128
 43
0.0
 10
500.7308383393
 20
-369.6958537934
 10
500.817302599
 20
-368.6174624085
 10
501.4436995983
 20
-362.5762427594
 10
502.3184152923
 20
-356.4355991577
 10
503.4391948246
 20
-350.2112988292
 10
504.8031616728
 20
-343.9193203504
 10
506.4068176485
 20
-337.5758141039
 10
508.2460428972
 20
-331.1970627346
 10
510.3161117036
 20
-324.7994461697
 10
512.6117188331
 20
-318.3993747006
 10
515.1269637269
 20
-312.013295065
 10
517.8553979172
 20
-305.6575870285
 10
520.790009222
 20
-299.3485694669
 10
523.9232744289
 20
-293.1024304081
 10
527.2471382215
 20
-286.9352148634
 10
530.7530763997
 20
-280.8627518284
 10
534.4320906113
 20
-274.9006269063
 10
538.2747346939
 20
-269.0641366821
 10
542.2711410165
 20
-263.3682796
 10
546.41105209
 20
-257.8276647107
 10
550.6838416401
 20
-252.4565238404
 10
555.0785488521
 20
-247.2686309855
 10
559.5838810047
 20
-242.2773190428
 10
564.1882793247
 20
-237.4953870389
 10
568.8799216211
 20
-232.9351168612
 10
573.6467670662
 20
-228.6082169875
 10
578.4765785859
 20
-224.5257913091
 10
583.3569571041
 20
-220.6983193622
 10
588.2753757873
 20
-217.1356365588
 10
589.1501764336
 20
-216.5324704289
  0
LWPOLYLINE
  5
F0
330
1F
100
AcDbEntity
  8
0
  6
Continuous
 62
     1
370
    25
100
AcDbPolyline
 90
       49
 70
   128
 43
0.0
 10
740.5399473617
 20
-280.2331676894
 10
741.6688296257
 20
-281.8624893141
 10
743.716866167
 20
-285.2580813762
 10
745.5394012637
 20
-288.909256024
 10
747.1306924077
 20
-292.8045327708
 10
748.4857399291
 20
-296.9316509647
 10
749.6002764595
 20
-301.2776260619
 10
750.4707932737
 20
-305.8287846104
 10
751.094556095
 20
-310.5708053164
 10
751.4695998265
 20
-315.4887699951
 10
751.5947443564
 20
-320.5672038762
 10
751.4695998265
 20
-325.7901265561
 10
751.094556095
 20
-331.1411075101
 10
750.4707932737
 20
-336.6033094401
 10
749.6002764595
 20
-342.1595453086
 10
748.4857399291
 20
-347.7923368931
 10
747.1306924077
 20
-353.4839596538
 10
745.5394012637
 20
-359.2165020482
 10
743.716866167
 20
-364.9719309283
 10
741.6688296257
 20
-370.7321356489
 10
739.4017295708
 20
-376.4789965042
 10
736.922704625
 20
-382.1944242728
 10
734.2395466867
 20
-387.860445385
 10
731.3607061992
 20
-393.4592201742
 10
728.2952341981
 20
-398.9731493367
 10
725.0527770434
 20
-404.3848739306
 10
721.6435448091
 20
-409.6773605452
 10
718.0782533315
 20
-414.8339712581
 10
714.3681268432
 20
-419.8384681977
 10
710.5248347528
 20
-424.675116961
 10
706.5604732059
 20
-429.328691174
 10
702.4875150355
 20
-433.7845561383
 10
698.3187728835
 20
-438.0286840367
 10
694.0673636393
 20
-442.0477292158
 10
689.7466649763
 20
-445.8290411098
 10
685.3702718871
 20
-449.3607197501
 10
680.9519532203
 20
-452.6316591076
 10
676.505610192
 20
-455.63156496
 10
672.0452335803
 20
-458.3509978534
 10
667.5848569685
 20
-460.7814061785
 10
663.1385139402
 20
-462.915138714
 10
658.7201952734
 20
-464.7454815053
 10
654.3438021842
 20
-466.2666787723
 10
650.0231035212
 20
-467.47393937
 10
645.771694277
 20
-468.3634668222
 10
641.602952125
 20
-468.9324661622
 10
637.5299939546
 20
-469.1791386052
 10
633.5656324077
 20
-469.1027188067
 10
631.6014601923
 20
-468.9406060971
  0
ENDSEC
  0
SECTION
  2
OBJECTS
  0
DICTIONARY
  5
C
330
0
100
AcDbDictionary
281
     1
  3
ACAD_GROUP
350
D
  3
ACAD_LAYOUT
350
1A
  3
ACAD_MLINESTYLE
350
17
  3
ACAD_PLOTSETTINGS
350
19
  3
ACAD_PLOTSTYLENAME
350
E
  3
ACAD_SCALELIST
350
47
  0
DICTIONARY
  5
D
102
{ACAD_REACTORS
330
C
102
}
330
C
100
AcDbDictionary
281
     1
  0
DICTIONARY
  5
1A
102
{ACAD_REACTORS
330
C
102
}
330
C
100
AcDbDictionary
281
     1
  3
Layout1
350
1E
  3
Layout2
350
26
  3
Model
350
22
  0
DICTIONARY
  5
17
102
{ACAD_REACTORS
330
C
102
}
330
C
100
AcDbDictionary
281
     1
  3
Standard
350
18
  0
DICTIONARY
  5
19
102
{ACAD_REACTORS
330
C
102
}
330
C
100
AcDbDictionary
281
     1
  0
ACDBDICTIONARYWDFLT
  5
E
102
{ACAD_REACTORS
330
C
102
}
330
C
100
AcDbDictionary
281
     1
  3
Normal
350
F
100
AcDbDictionaryWithDefault
340
F
  0
DICTIONARY
  5
47
102
{ACAD_REACTORS
330
C
102
}
330
C
100
AcDbDictionary
281
     1
  3
A0
350
48
  3
A1
350
49
  3
A2
350
4A
  3
A3
350
4B
  3
A4
350
4C
  3
A5
350
4D
  3
A6
350
4E
  3
A7
350
4F
  3
A8
350
50
  3
A9
350
51
  3
B0
350
52
  3
B1
350
53
  3
B2
350
54
  3
B3
350
55
  3
B4
350
56
  3
B5
350
57
  3
B6
350
58
  3
B7
350
59
  3
B8
350
5A
  3
B9
350
5B
  3
C0
350
5C
  3
C1
350
5D
  3
C2
350
5E
  3
C3
350
5F
  3
C4
350
60
  3
C5
350
61
  3
C6
350
62
  3
C7
350
63
  3
C8
350
64
  3
C9
350
65
  3
D0
350
66
  3
D1
350
67
  3
D2
350
68
  0
LAYOUT
  5
1E
102
{ACAD_REACTORS
330
1A
102
}
330
1A
100
AcDbPlotSettings
  1

  2
none_device
  4

  6

 40
0.0
 41
0.0
 42
0.0
 43
0.0
 44
0.0
 45
0.0
 46
0.0
 47
0.0
 48
0.0
 49
0.0
140
0.0
141
0.0
142
1.0
143
1.0
 70
   688
 72
     1
 73
     0
 74
     5
  7

 75
    16
147
1.0
148
0.0
149
0.0
100
AcDbLayout
  1
Layout1
 70
     1
 71
     1
 10
0.0
 20
0.0
 11
420.0
 21
297.0
 12
0.0
 22
0.0
 32
0.0
 14
1.0000000000E+20
 24
1.0000000000E+20
 34
1.0000000000E+20
 15
-1.0000000000E+20
 25
-1.0000000000E+20
 35
-1.0000000000E+20
146
0.0
 13
0.0
 23
0.0
 33
0.0
 16
1.0
 26
0.0
 36
0.0
 17
0.0
 27
1.0
 37
0.0
 76
     0
330
1B
  0
LAYOUT
  5
26
102
{ACAD_REACTORS
330
1A
102
}
330
1A
100
AcDbPlotSettings
  1

  2
none_device
  4

  6

 40
0.0
 41
0.0
 42
0.0
 43
0.0
 44
0.0
 45
0.0
 46
0.0
 47
0.0
 48
0.0
 49
0.0
140
0.0
141
0.0
142
1.0
143
1.0
 70
   688
 72
     1
 73
     0
 74
     5
  7

 75
    16
147
1.0
148
0.0
149
0.0
100
AcDbLayout
  1
Layout2
 70
     1
 71
     2
 10
0.0
 20
0.0
 11
0.0
 21
0.0
 12
0.0
 22
0.0
 32
0.0
 14
0.0
 24
0.0
 34
0.0
 15
0.0
 25
0.0
 35
0.0
146
0.0
 13
0.0
 23
0.0
 33
0.0
 16
1.0
 26
0.0
 36
0.0
 17
0.0
 27
1.0
 37
0.0
 76
     0
330
23
  0
LAYOUT
  5
22
102
{ACAD_REACTORS
330
1A
102
}
330
1A
100
AcDbPlotSettings
  1

  2
none_device
  4
Letter_(8.50_x_11.00_Inches)
  6

 40
6.35
 41
6.35
 42
6.35000508
 43
6.35000508
 44
215.9
 45
279.4
 46
0.0
 47
0.0
 48
0.0
 49
0.0
140
0.0
141
0.0
142
1.0
143
1.0
 70
  1712
 72
     1
 73
     0
 74
     0
  7

 75
     0
147
1.0
148
0.0
149
0.0
100
AcDbLayout
  1
Model
 70
     1
 71
     0
 10
0.0
 20
0.0
 11
279.4
 21
215.9
 12
0.0
 22
0.0
 32
0.0
 14
0.0
 24
0.0
 34
0.0
 15
279.4
 25
215.9
 35
0.0
146
0.0
 13
0.0
 23
0.0
 33
0.0
 16
1.0
 26
0.0
 36
0.0
 17
0.0
 27
1.0
 37
0.0
 76
     0
330
1F
331
29
  0
MLINESTYLE
  5
18
102
{ACAD_REACTORS
330
17
102
}
330
17
100
AcDbMlineStyle
  2
Standard
 70
     0
  3

 62
   256
 51
90.0
 52
90.0
 71
     2
 49
0.5
 62
   256
  6
BYLAYER
 49
-0.5
 62
   256
  6
BYLAYER
  0
ACDBPLACEHOLDER
  5
F
102
{ACAD_REACTORS
330
E
102
}
330
E
  0
SCALE
  5
48
102
{ACAD_REACTORS
330
47
102
}
330
47
100
AcDbScale
 70
     0
300
1:1
140
1.0
141
1.0
290
     1
  0
SCALE
  5
49
102
{ACAD_REACTORS
330
47
102
}
330
47
100
AcDbScale
 70
     0
300
1:2
140
1.0
141
2.0
290
     0
  0
SCALE
  5
4A
102
{ACAD_REACTORS
330
47
102
}
330
47
100
AcDbScale
 70
     0
300
1:4
140
1.0
141
4.0
290
     0
  0
SCALE
  5
4B
102
{ACAD_REACTORS
330
47
102
}
330
47
100
AcDbScale
 70
     0
300
1:5
140
1.0
141
5.0
290
     0
  0
SCALE
  5
4C
102
{ACAD_REACTORS
330
47
102
}
330
47
100
AcDbScale
 70
     0
300
1:8
140
1.0
141
8.0
290
     0
  0
SCALE
  5
4D
102
{ACAD_REACTORS
330
47
102
}
330
47
100
AcDbScale
 70
     0
300
1:10
140
1.0
141
10.0
290
     0
  0
SCALE
  5
4E
102
{ACAD_REACTORS
330
47
102
}
330
47
100
AcDbScale
 70
     0
300
1:16
140
1.0
141
16.0
290
     0
  0
SCALE
  5
4F
102
{ACAD_REACTORS
330
47
102
}
330
47
100
AcDbScale
 70
     0
300
1:20
140
1.0
141
20.0
290
     0
  0
SCALE
  5
50
102
{ACAD_REACTORS
330
47
102
}
330
47
100
AcDbScale
 70
     0
300
1:30
140
1.0
141
30.0
290
     0
  0
SCALE
  5
51
102
{ACAD_REACTORS
330
47
102
}
330
47
100
AcDbScale
 70
     0
300
1:40
140
1.0
141
40.0
290
     0
  0
SCALE
  5
52
102
{ACAD_REACTORS
330
47
102
}
330
47
100
AcDbScale
 70
     0
300
1:50
140
1.0
141
50.0
290
     0
  0
SCALE
  5
53
102
{ACAD_REACTORS
330
47
102
}
330
47
100
AcDbScale
 70
     0
300
1:100
140
1.0
141
100.0
290
     0
  0
SCALE
  5
54
102
{ACAD_REACTORS
330
47
102
}
330
47
100
AcDbScale
 70
     0
300
2:1
140
2.0
141
1.0
290
     0
  0
SCALE
  5
55
102
{ACAD_REACTORS
330
47
102
}
330
47
100
AcDbScale
 70
     0
300
4:1
140
4.0
141
1.0
290
     0
  0
SCALE
  5
56
102
{ACAD_REACTORS
330
47
102
}
330
47
100
AcDbScale
 70
     0
300
8:1
140
8.0
141
1.0
290
     0
  0
SCALE
  5
57
102
{ACAD_REACTORS
330
47
102
}
330
47
100
AcDbScale
 70
     0
300
10:1
140
10.0
141
1.0
290
     0
  0
SCALE
  5
58
102
{ACAD_REACTORS
330
47
102
}
330
47
100
AcDbScale
 70
     0
300
100:1
140
100.0
141
1.0
290
     0
  0
SCALE
  5
59
102
{ACAD_REACTORS
330
47
102
}
330
47
100
AcDbScale
 70
     0
300
1/128" = 1'-0"
140
0.0078125
141
12.0
290
     0
  0
SCALE
  5
5A
102
{ACAD_REACTORS
330
47
102
}
330
47
100
AcDbScale
 70
     0
300
1/64" = 1'-0"
140
0.015625
141
12.0
290
     0
  0
SCALE
  5
5B
102
{ACAD_REACTORS
330
47
102
}
330
47
100
AcDbScale
 70
     0
300
1/32" = 1'-0"
140
0.03125
141
12.0
290
     0
  0
SCALE
  5
5C
102
{ACAD_REACTORS
330
47
102
}
330
47
100
AcDbScale
 70
     0
300
1/16" = 1'-0"
140
0.0625
141
12.0
290
     0
  0
SCALE
  5
5D
102
{ACAD_REACTORS
330
47
102
}
330
47
100
AcDbScale
 70
     0
300
3/32" = 1'-0"
140
0.09375
141
12.0
290
     0
  0
SCALE
  5
5E
102
{ACAD_REACTORS
330
47
102
}
330
47
100
AcDbScale
 70
     0
300
1/8" = 1'-0"
140
0.125
141
12.0
290
     0
  0
SCALE
  5
5F
102
{ACAD_REACTORS
330
47
102
}
330
47
100
AcDbScale
 70
     0
300
3/16" = 1'-0"
140
0.1875
141
12.0
290
     0
  0
SCALE
  5
60
102
{ACAD_REACTORS
330
47
102
}
330
47
100
AcDbScale
 70
     0
300
1/4" = 1'-0"
140
0.25
141
12.0
290
     0
  0
SCALE
  5
61
102
{ACAD_REACTORS
330
47
102
}
330
47
100
AcDbScale
 70
     0
300
3/8" = 1'-0"
140
0.375
141
12.0
290
     0
  0
SCALE
  5
62
102
{ACAD_REACTORS
330
47
102
}
330
47
100
AcDbScale
 70
     0
300
1/2" = 1'-0"
140
0.5
141
12.0
290
     0
  0
SCALE
  5
63
102
{ACAD_REACTORS
330
47
102
}
330
47
100
AcDbScale
 70
     0
300
3/4" = 1'-0"
140
0.75
141
12.0
290
     0
  0
SCALE
  5
64
102
{ACAD_REACTORS
330
47
102
}
330
47
100
AcDbScale
 70
     0
300
1" = 1'-0"
140
1.0
141
12.0
290
     0
  0
SCALE
  5
65
102
{ACAD_REACTORS
330
47
102
}
330
47
100
AcDbScale
 70
     0
300
1-1/2" = 1'-0"
140
1.5
141
12.0
290
     0
  0
SCALE
  5
66
102
{ACAD_REACTORS
330
47
102
}
330
47
100
AcDbScale
 70
     0
300
3" = 1'-0"
140
3.0
141
12.0
290
     0
  0
SCALE
  5
67
102
{ACAD_REACTORS
330
47
102
}
330
47
100
AcDbScale
 70
     0
300
6" = 1'-0"
140
6.0
141
12.0
290
     0
  0
SCALE
  5
68
102
{ACAD_REACTORS
330
47
102
}
330
47
100
AcDbScale
 70
     0
300
1'-0" = 1'-0"
140
12.0
141
12.0
290
     0
  0
ENDSEC
  0
EOF
